rogue_firefly

Subscribe!
Contacting rogue_firefly
Send message Forward
Add to friends Favorites
Add to group Block user
Thursday, January 31, 2008

Anyone know what song this is from?

Current mood: annoyed

Views: 68
Comments: 0
Just reading through a guitar magazine and found some Snow Patrol stuff that's been tabbed out. There's about 3 different songs in here and 1 of them I instantly recognised as Chasing Cars, 1 of the others I don't know, and the other I know but can't remember what it is. How annoying they forgot to print what songs they where. They remembered to do it with all the other artists stuff. Anyway, if anyone could tell me what it is I'd be grateful.

repeat each section once before going on to the next.

E ------------------|------------------|
B ------------------|------------------|
G ------------------|------------------|
D -7-7-7-7-7-7-7-7-|-6-6-6-6-6-6-6-6-|
A -0-0-0-0-0-0-0-0-|-0-0-0-0-0-0-0-0-|
E ------------------|------------------|

E ------------------|------------------|
B ------------------|------------------|
G ------------------|------------------|
D -4-4-4-4-4-4-4-4-|-2-2-2-2-2-2-2-2-|
A -0-0-0-0-0-0-0-0-|-0-0-0-0-0-0-0-0-|
E ------------------|------------------|
4:00 pm - 0 comments - 0 Kudos - Report!
Post your comment
Expand