rikigo

Subscribe!
Contacting rikigo
Send message Forward
Add to friends Favorites
Add to group Block user
 Blog archive :

First | Last

Next 10

Previous 10

Advanced view
from date
to date
on date
Wednesday, July 17, 2013

Sue Me, Sue You Blues

Current mood: annoyed

Well I'll be, a triple hitter! Three TAB's rejected this month! Here's the current sample...

Artist: George Harrison
Song: Sue Me, Sue You Blues
Album: Living In The Material World (1973)
URL's: http://en.wikipedia.org/wiki/Sue_Me,_Sue_You_Blues ;http://www.youtube.com/watch?v=f2JIexhpMNs;http:/ /www.youtube.com/watch?v=3qeMnRVHZf0
Tempo: 4|4
Style: Square-Dance Calls set to a Blues Ballad
Tuning: Open E (EBEAbBE)


Chords
654321 = EBEAbBe (Actual)
E7: 000030
A: 555555
G: 333333
E: 000000
D: X3213X or 101010101010(preferred)
C: 888888
F#7: XX2220
F#9: XX2020


INTRO:
|E7 |E7 |E7 |E7 |


VERSE 1:
A
You serve me and I'll serve you,
G E
Swing your partners, all get screwed.
A
Bring your lawyer and I'll bring mine,
G E7
Get together, and we could have a bad time.


VERSE 2:
A
It's affidavit swearing time,
G E
Sign it on the dotted line.
A
Hold your Bible in your hand,
G E7
Now all that's left, is to find yourself a new band.


CHORUS 1:
N.C. D A C G F#7
We're gonna play the sue me, sue you blues.
N.C. D A C G F#9
We're gonna play the sue me, sue you blues.


INSTRUMENTAL 1:(Slide Guitar Over)
|A |A |A |A |
|A |A |A |G E |
|A |A |A |A |
|A |A |A |G E7 |


CHORUS 2:
N.C. D A C G F#7
We're gonna play the sue me, sue you blues.
N.C. D A C G F#9
We're gonna play the sue me, sue you blues.


VERSE 2:
A
Hold the block on money flow,
G E
Move it into joint escrow.
A
Court receiver, laughs and thrills,
E7
But in the end, we just pay those lawyers their bills.


VERSE 3:
A
When you serve me and I'll serve you,
G E
Swing your partners, all get screwed.
A
Bring your lawyer and I'll bring mine,
G E7
Get together and we could have a bad time.


CHORUS 3:
N.C. D A C G F#7
We're gonna play the sue me, sue you blues.
N.C. D A C G F#9
We're gonna play the sue me, sue you blues.


CHORUS 4:
N.C. D A C G F#7
We're gonna play the sue me, sue you blues.
N.C. D A C G F#9
I'm tired of playin' the sue me, sue you blues.


INSTRUMENTAL REFRAIN 1:(Slide Guitar Over)
|N.C. D|A C G F#7 |
|N.C. D|A C G F#9 |


INSTRUMENTAL 3:(Slide Guitar Over)
|A |A |A |A |
|A |A |A |G E |
|A |A |A |A |
|A |A |A |G E7 |


INSTRUMENTAL REFRAIN 2:(Slide Guitar Over)
|N.C. D|A C G F#7 |
|N.C. D|A C G F#9 |


INSTRUMENTAL REFRAIN 3:(Slide Guitar Over)
|N.C. D|A C G F#7 |
|N.C. D|A C G F#9 |


INSTRUMENTAL REFRAIN 4:(Slide Guitar Over)
|N.C. D|A C G F#7 |
|N.C. D|A C G F#9 |


INSTRUMENTAL REFRAIN 5:(Slide Guitar Over)
|N.C. D|A C G F#7 |
|N.C. D|A C G F#9 |


INSTRUMENTAL CODA:(Slide Guitar Over) [Fade Out]
|N.C. D|A C G F#7 |
|N.C. D|A C G F#9 |


[End]


Notes.
1. An early demo of the song exists and clearly reveals the 'Open E' tuning. http://www.youtube.com/watch?v=3qeMnRVHZf0
2. Regarding the song's square-dance theme, [Leng] suggests that folk dancing's cycle of about-turns and to-and-fro movement reminded Harrison of the Beatles' "seemingly endless, and pointless, legal orbits around one another" in the early 70's.

11:13 pm - 0 comments - 0 Kudos
Monday, July 15, 2013

The Beatles: Fixing A Hole

Current mood: disappointed

Another weird factoid, this TAB was rejected over a week ago. Despite every second day requests to UG Tabs review, it's still sitting as rejected? So what happens in the Summer holiday season in the USA, ...does everyone go to ground?

I really hope that it goes re-reviewed, soon? It took some time to develop and it's 'notialy' correct. Let's see what happens? Otherwise, it'll sit in the 'archive' cupboard!

'Disappointed,
:-R

Artist: The Beatles
Song: Fixing A Hole
Album: Sgt. Peppers Lonely Hearts Club Band - Remastered (2009)
URL's: http://www.youtube.com/watch?v=flGdFvkjMPU;http:// en.wikipedia.org/wiki/Fixing_a_Hole;http://www.bea tlesbible.com/songs/fixing-a-hole/
Tempo: 2/4
Style: Tempo Giusto
Tuning: Standard

Capo 3

Chords:
EADGBe
D: XX0232
Aaug: XX3221
Dm7: XX0211
Dm6: XX0201
G7/D: XX0001
Asus2: X02200
A: X02220
E7: 020100


INTRO:
|D |Aaug |Dm7 |G7/D |


VERSE 1:
D Aaug Dm7 Dm6
I'm fixing a hole where the rain gets in,
Dm7 Dm6 G7/D
And stops my mind from wandering.
Dm7-Dm6-G7/D Dm7-Dm6-G7/D
Where it will go __


VERSE 2:
D Aaug Dm7 Dm6
I'm filling the cracks that ran through the door,
Dm7 Dm6 G7/D
And kept my mind from wandering.
Dm7-Dm6-G7/D Dm7-Dm6-G7/D
Where it will go __


BRIDGE 1:
D Asus2 D Asus2 D
And it really doesn't matter if I'm wrong, I'm right, where I belong,
Asus2 D
I'm right where I belong.
A E7 A E7
See the people standing there who disagree and never win,
A E7 A
And wonder why they don't get in my door.


VERSE 3:
D Aaug Dm7 Dm6
I'm painting the room in a colourful way,
Dm7 Dm6 G7/D
And when my mind is wandering,
Dm7-Dm6-G7/D Dm7-Dm6-G7/D
There I will go __ Hey, hey!


INSTRUMENTAL:(Lead over)
|D Asus2 |D Asus2 |D Asus2 |D |
|A E7 |A E7 |A E7 |A |


BRIDGE 2:
D Asus2 D Asus2 D
And it really doesn't matter if I'm wrong, I'm right, where I belong,
Asus2 D
I'm right, where I belong.
A E7 A E7
Silly people run around, who worry me and never ask me,
A E7 A
Why they don't get past my door.


VERSE 4:
D Aaug Dm7 Dm6
I'm taking the time to do a number of things,
Dm7 Dm6 G7
That weren't important yesterday,
Dm7-Dm6-G7/D Dm7-Dm6-G7/D
And I still go __


VERSE 5:
D Aaug Dm7 Dm6
I'm fixing a hole where the rain gets in,
Dm7 Dm6 G7/D
And stops my mind from wandering.
Dm7-Dm6-G7/D Dm7-Dm6-G7/D
Where it will go __
Dm7-Dm6-G7/D Dm7-Dm6-G7/D
Where it will go __


CODA: (Fade)
D Aaug Dm7 Dm6
I'm fixing a hole where the rain gets in,
Dm7 Dm6 G7/D
And stops my mind from wandering.
Dm7-Dm6-G7/D Dm7-Dm6-G7/D
Where it will go __


[End]


Notes.
1. This version arose from an attempt to harmonise the melody on an acoustic without barre chords. It differs structurally from any previous versions in that it matches the distinct three chord outro on the Instrumental. It also adds some extra texture to the latter part of each Verse and adds a haunting quality to the Bridges.
2. The transitional chords 'Dm7-Dm6-G7/D' are successively created by lifting off one finger at a time from the three-fingered 'Dm7'.
3. Notes on "Fixing A Hole" http://www.icce.rug.nl/~soundscapes/DATABASES/AWP/ fah.shtml .

5:24 pm - 0 comments - 0 Kudos
Wednesday, July 03, 2013

I Don't Want To Spoil The Party

Current mood: aggravated

Chalk another reject up for the great irrational nexus...

Artist: The Beatles
Song: I Don't Want To Spoil The Party
Album: Rubber Soul (2009 Stereo Remaster)
Tempo: 4/4
Style: Agilita
Tuning: Standard

Chords:
EADGBe
G: 320033
G7: 323033
Fadd9: XX3213
D7sus4: XX0213
D: XX0232
D/A: X00232
Em: 022000
B7: X21202
Am7: X02010
D7: XX0212
A7: X02020
C: X32013



INTRO:
|G |G7 |Fadd9 |D7sus4 |
|D |D D/A |G |


VERSE 1:
G
I don't want to spoil the party so I'll go,
D
I would hate my disappointment to show.
Em B7 Am7 D7
There's nothing for me here so I will disappear,
G Fadd9 G
If she turns up while I'm gone please let me know.


VERSE 2:
G
I've had a drink or two and I don't care,
D
There's no fun in what I do if she's not there.
Em B7 Am7 D7
I wonder what went wrong I've waited far too long,
G Fadd9 G
I think I'll take a walk and look for her.


CHORUS 1:
G
Though to-night she's made me sad,
Em A7 C D
I still love her.
G
If I find her I'll be glad,
Em A7 C D
I still love her.


VERSE 3:
G
I don't want to spoil the party so I'll go,
D
I would hate my disappointment to show.
Em B7 Am7 D7
There's nothing for me here so I will disappear,
G Fadd9 G
If she turns up while I'm gone please let me know.


CHORUS 2:
G
Though to-night she's made me sad,
Em A7 C D
I still love her.
G
If I find her I'll be glad,
Em A7 C D
I still love her.


INSTRUMENTAL:
|G |G |G |G |G |G |G |D |
|D |Em |B7 |Am7 |D |G |Fadd9 |G |


VERSE 4:
G
I've had a drink or two and I don't care,
D
There's no fun in what I do if she's not there.
Em B7 Am7 D7
I wonder what went wrong I've waited far too long,
G Fadd9 G
I think I'll take a walk and look for her.


CODA:
|G |G7 |Fadd9 |D7sus4 |
|D |D D/A |G ||


[End]


Notes.
1. Although this song was written for Ringo, it was sung by John who alleges that he "owed much to Paul" who was stronger on the guitar. http://www.beatlesbible.com/songs/i-dont-want-to-s poil-the-party/
2. The hallmarks of Lennon's legacy of banjo-style guitar chords are apparent, especially in this songs fingering of 'G to G7' & 'Fadd9 to D7sus4'.

1:46 pm - 0 comments - 0 Kudos
Friday, February 15, 2013

Glory Road - Live

Current mood: annoyed

Song: Glory Road
Artist: Richard Clapton
Album: Up & Down the Glory Road - Live (2001)
URL: http://en.wikipedia.org/wiki/Richard_Clapton;
http://www.jbhifionline.com.au/music/pop-rock/up-a nd-down-the-glory-road-richard-clapton/177162;http ://www.youtube.com/watch?v=pw9qzeputS0
Tempo: 3|4
Method: Standard strum pattern
Tuning: Half-Step Down


Chords:
EADGBe
D: XX0232
C/G: 332010
F: 133211
G: 355433


Intro:
|D D|C/G C/G|
|D D|C/G C/G|


Verse 1:
D
And when there's only one mountain to climb,
C/G
You can't take the mountain 'cause the mountain is mine,
D
As long as we hang on just one more day,
C/G
That is something they can't take away.


Verse 2:
D
You lead your children down suicide row,
C/G
Now all your children gotta reap what you sow.
D
Self - righteous suckers with your damn virtues,
C/G
You try and take me - and I'll take you -


Chorus 1:(Pianissimo)
G F
Here We Go - Down the Glory Road. (Here We Go)
G F
Down And Out, On The Glory Road. (Down And Out, On The Glory Road)


Verse 3:
D
We come from China, we come from Japan,
C/G
We come from Sweden and the Netherlands.
D
Never surrender till that final dawn,
C/G
Never surrender till that dark cloud's gone.


Verse 4:
D
I hear the thunder from the distant shore,
C/G
Some crazy general's trying to keep the score.
D
We built this tower here in Babylon -
C/G
Just one big flash and it will all be gone.


Chorus 2:(Forte)
G F
Here We Go - Down the Glory Road. (Here We Go)
G F
Down And Out, On The Glory Road. (Down And Out, On The Glory Road)


Bridge:(Instrumental Over)
|D D|C/G C/G|
|D D|C/G C/G|


Verse 5:
D
Some take their problems to the wailing wall,
C/G
Even though that faith may stumble and fall.
D
Muslims and Hindus and the Protestants,
C/G
Can't understand why we can't all be friends.


Verse 6:
D
Last night I had a strange, strange dream -
C/G
There was no politics - just you and me.
D
No more deceit from politician's lies,
C/G
Can't you see that I am on your side.


Chorus 3:(Forte)
G F
Here We Go - Down the Glory Road. (Here We Go)
G F
Down And Out, On The Glory Road. (Down And Out, On The Glory Road)


Chorus 4:(Forte)
G F
Here We Go - Down the Glory Road. (Here We Go)
G F
Down And Out, On The Glory Road. (Down And Out, On The Glory Road)

Yeah - yeah.


Reprise:(Instrumental Over)
|D D|C/G C/G|D D|C/G C/G|
|D D|C/G C/G|D D|C/G C/G|
|D D|C/G C/G|D D|C/G C/G|
|D D|C/G C/G|D D|C/G C/G|


Coda:(Instrumental Over)
|D D|C/G C/G|D D|C/G C/G|
|D D|| (Fade)


[End]

3:05 pm - 0 comments - 0 Kudos
Thursday, February 14, 2013

Girls On The Avenue - Live

Current mood: bitchy

Song: Girls On The Avenue
Artist: Richard Clapton
Album: Up & Down the Glory Road - Live (2001)
URL: http://en.wikipedia.org/wiki/Richard_Clapton;http: //www.youtube.com/watch?v=opu3tZ9tUgg;http://www.j bhifionline.com.au/music/pop-rock/up-and-down-the- glory-road-richard-clapton/177162
Tempo: 4|4
Method: Standard strum pattern. The compound chords (Am-Am7) are changed in the playing of the down to the upstroke.
Tuning: Standard

Capo 2

Chords:
EADGBe
C/G: 332010
Cmaj7/G: 332000
Am: X02210
Fmaj7#11: 133200
Em7: 020000
Am7: X02010
G: 320003
Cmaj9/G: 330000


Intro 1:
|C/G-Cmaj7/G-C/G Am|C/G-Cmaj7/G-C/G Am|


Verse 1:
C/G Am C/G Am
Girls on the avenue, they're trying to get you in,
Fmaj7#11 Em7 Am-Am7 Am-Am7
Strolling by with their rosebud smiles.
C/G Am C/G Am
They're all dressed up to kill, lean on the window sill,
Fmaj7#11 Em7 Am-Am7 Am-Am7
Looking your way with eyes of fire.


Chorus 1:
Fmaj7#11 G Fmaj7#11 G Fmaj7#11
But don't you slip, don't you slip in love with the,
C/G Em7 Am/Am7 Am/Am7
Girls on the aven - ue.


Bridge 1:
Cmaj9/G Cmaj7/G Cmaj9/G Cmaj7/G Fmaj7#11
Friday night see the girls on the aven-ue like a child at,
Cmaj9/G Cmaj7/G Am Am7 Fmaj7#11 G
Big store windows you feel con-fused so many girls on the a - venue.


Intro 2:
|C/G-Cmaj7/G-C/G Am|


Verse 2:
C/G Am C/G Am
Girls on the avenue, know how to get you in,
Fmaj7#11 Em7 Am-Am7 Am-Am7
Casting out sighs like tricks from a hat.
C/G Am C/G Am
All the Miss Lonely Hearts, ooh they look awful hard,
Fmaj7#11 Em7 Am-Am7 Am-Am7
Then sometimes they seem as fragile as glass.


Chorus 2:
Fmaj7#11 G Fmaj7#11 G Fmaj7#11
But don't you slip, don't you slip in love with the,
C/G Em7 Am/Am7 Am/Am7
Girls on the aven - ue.


Bridge 2:
Cmaj9/G Cmaj7/G Cmaj9/G Cmaj7/G Fmaj7#11
Friday night see the girls on the aven-ue like a child at,
Cmaj9/G Cmaj7/G Am Am7 Fmaj7#11 G
Big store windows you feel con-fused so many girls on the a - venue.


Refrain:(Middle Eight)
|Am-Am7 Am-Am7|Em-Em7|...
|Am-Am7 Am-Am7|Em-Em7|
Oh-aah-uh-aah-uh-aaah,
|Am-Am7 Am-Am7|Em-Em7|
Oh-aah-uh-aah-uh-aaah.


Chorus 3:
Fmaj7#11 G Fmaj7#11 G Fmaj7
Don't you slip, don't you slip in love with the,
C/G Em7 Am-Am7 Am-Am7
Girls on the aven - ue.


Bridge 3:
Cmaj9/G Cmaj7/G Cmaj9/G Cmaj7/G Fmaj7#11
Friday night see the girls on the aven-ue like a child at,
Cmaj9/G Cmaj7/G Am Am7 Fmaj7#11 G
Big store windows you feel con-fused so many girls on the a - venue.


Chorus 4:
Fmaj7#11 G Fmaj7#11 G Fmaj7#11
But don't you slip, don't you slip in love with the,
C/G Em7 Am-Am7 Am-Am7
Girls on the aven - ue.


Chorus 5:
Fmaj7#11 G Fmaj7#11 G Fmaj7#11
Oh don't you slip, don't you slip in love with the,
C/G Em7 Am-Am7 Am-Am7
Girls on the aven - ue. Ah-oh.


Chorus 6:
Fmaj7#11 G Fmaj7#11 G Fmaj7#11
Wait now don't you slip, wait boys don't you slip in love with the,
C/G Em7 Am-Am7 Am-Am7
Girls on the aven - ue. Wah-h.


Coda: (Fade)
Fmaj7#11 G Fmaj7#11 G Fmaj7#11
Wa-h now don't you slip, wait boys don't you slip in love with the,
C/G Em7 Am-Am7 Am-Am7
Girls on the aven - ue.


"Thank You!"


[End]


Notes.
1."I have a nice house and it's the house that 'Girls on the Avenue' built!" - Richard Clapton (2010). http://www.youtube.com/watch?feature=player_embedd ed&v=U--PaPgwmYU
2. Clapton's commercial breakthrough came with his single, "Girls on the Avenue", (originally) issued in January 1975. Although Festival had little faith in the song—initially releasing it as the B-side of "Travelling Down the Castlereagh"—it was picked up by radio and became a major hit, reaching the No. 4 spot on the Australian Kent Music Report Singles Chart in March.  http://en.wikipedia.org/wiki/Richard_Clapton#Girls _on_the_Avenue



12:43 pm - 0 comments - 0 Kudos
Thursday, January 24, 2013

I Don't Want to Be a Soldier (Outake)

Current mood: bitchy

Song: I Don't Want to Be a Soldier (Outake) [Remastered]
Artist: John Lennon
Album: Signature Box (Remastered) https://itunes.apple.com/us/album/signature-box-re mastered/id392357247 (2010)
Tempo: 3/4
URL: https://www.youtube.com/watch?NR=1&v=1wMqCu0R5 Bo&feature=fvwp
Method: Brisk strum pattern. Rapid progressions by lift off's and hammer on's.
Tuning: Standard

Capo 3

Chords: EADGBe
E: ----- 022100
E7: ----- 020100
E11:----- 000010


Intro: (Piano over)
| E/E7-E11/E | E/E7-E11/E |
| E/E7-E11/E | E/E7-E11/E |


Verse 1: (Piano over)
E/E7-E11/E E/E7-E11/E E/E7-E11/E E/E7-E11/E
We-ll, I do-n't wa-nt t-o, b-e a soldier mama, ...I don't wanna die.
E/E7-E11/E E/E7-E11/E E/E7-E11/E E/E7-E11/E
We-ll, I do-n't wa-nt t-o, b-e a soldier mama, ...I don't wanna die. (Why must ...I die?)
E/E7-E11/E E/E7-E11/E E/E7-E11/E E/E7-E11/E
We-ll, I do-n't wa-nt t-o, b-e a soldier mama, ...I don't wanna die.
E/E7-E11/E E/E7-E11/E E/E7-E11/E E/E7-E11/E
We-ll, I do-n't wa-nt t-o, b-e an airman mama, ...I don't wanna fly. ('Die)
E/E7-E11/E E/E7-E11/E E/E7-E11/E E/E7-E11/E
We-ll, I do-n't wa-nt t-o, b-e a soldier mama, ...I don't wanna die.


Instrumental Break: (Piano over)
| E/E7-E11/E | E/E7-E11/E |
| E/E7-E11/E | E/E7-E11/E |


"Uh, Hello, hello, ...hello, ...hello?" (Spoken to Control Desk)


Coda: (Improvised scat)
E/E7-E11/E E/E7-E11/E E/E7-E11/E E/E7-E11/E
We-ell. Bah-dah, duh, de-de-de, dad-dle, doo-doo! Shoe-my shoes.

[End]
11:49 am - 0 comments - 0 Kudos
Tuesday, October 02, 2012

Grinnin' In Your Face

Current mood: annoyed

Song: Grinnin' In Your Face (1930).
Artist: Son House
Album: The Original Delta Blues (Mojo Workin': Blues For The Next Generation) (1998).
Tempo: Moderato.
Time: 2/4
Tabbed: rikigo
URL's: https://www.youtube.com/watch?feature=player_embe dded&v=EJ-TQwMhPDg&list=PLF0C11AC89989A42E ;
http://en.wikipedia.org/wiki/Son_House; http://en.wikipedia.org/wiki/A_cappella
Method: Although, the original song is sung 'a cappella', these chords are the accompaniment.
Tuning: Standard.

Chords:
EADGBe
G === 320003
D7 === XX0212
G7 === 320001
C === 332010
A7 === X02020


Chorus 1:
G
Don't you mind people grinnin' in your face,
G D7
Don't mind people grinnin' in your face.
NC G G7 C A7
I said, just bear this in mind, a true friend is hard to find,
G D7 G
Don't you mind people grinnin' in your face.


Verse 1:
G
You know, they'll grin in your face,
G D7
They'll jump you up and down.
G G7
Just as soon as your back is turned,
C A7
They'll be tryin' to crush you down.


Bridge 1:
G G7 C A7
Just bear this in mind, a true friend is hard to find.
G D7 G
Don't you mind people grinnin' in your face.


Verse 2:
G
You know, your mother, she'll talk about you.
G D7
Your brothers and your sisters, too.
G G7
'Don't care how you're trying to live,
C A7
They'll talk about you still.


Bridge 2:
G G7 C A7
Just bear this in mind, a true friend is hard to find.
G D7 G
Don't you mind people grinnin' in your face.


Chorus 2:
G
Don't you mind people grinnin' in your face.
G D7
Don't mind people grinnin' in your face, O Lord,
G G7 C A7
Just bear this in mind, a true friend is hard to find.
G D7 G
Don't you mind people grinnin' in your face.

(End)

Notes:
1. Alternatively, this song can be played in traditional Open G (DGDGBd), with a slide on the little finger playing the major chords. Fingering the 7th chords, where necessary.
2. Jack White has confirmed this as his "favourite song".



3:02 pm - 0 comments - 0 Kudos
Tuesday, March 20, 2012

Kitty Daisy and Lewis: Buggin' Blues

Current mood: pissed off

Artist: Kitty Daisy and Lewis
Song: Buggin' Blues
Written: Kitty Daisy and Lewis
Concert: Concert du 24 Avril 2010 Aulnoye-Aymeries (FRANCE )
URL: http://www.youtube.com/watch?v=a9_R9rDLWsk

Author: Richard Grosser (grosserr@gmail.com)

Tuning: Standard

Style: Stoccato Jazz Guitar with Honky-Tonk Keyboards
Notation: S = Shift Slide

Chords:
EADGBE
G# : ======== 477644
A : ======== 577655
C/G : ======== 799877
C#/G# : ======== 446464
D7/A : ======== 557575
D/F# : ======== XXX111010
Eb/G : ======== XXX121111
E/G# : ======== XXX131212


Intro :
|C B|Bb A|(Keyboard Run-In)

Instrumental #1:
|G#S A|G#S A|
|C#S D7/A|G#S A|

|C B|Bb A|(Keyboard Run)


Verse 1:
G#S A
Well quit buggin' me baby.
G#S A
Won't you leave me alone?
C#/G#S D7/A
Well quit bugging' me baby.
D7/A G#S A
Won't you leave me alone?
A E/G#
Goin' to pack up my suitcase,
D7/A A
Move right back along.

|C B|Bb A|(Keyboard Run)


Verse 2:
G#S A
Well I told you last night babe.
G#S A
Stop hanging 'round my door.
C#/G#S D7/A
Well I told you last night babe.
D7/A G#S A
Stop hanging 'round my door.
A E/G#
Well eventhough I love you baby,
D7/A A
I don't want to see you no more.
|C B|Bb A|(Keyboard Run)

Instrumental #2:
|Eb/GS E/G#|Eb/GS E/G#|
|C#/G#S D7/A|G#S A|

|C B|Bb A|(Keyboard Run)


Verse 3:
G#S A
Well I need to see you darling.
G#S A
I want you by my side.
C#/G#S D7
Well I need to see you darling.
D7/A G#S A
I want you by my side.
A E/G#
I don't care how I git you baby
D7/A A
'As long as I git you alright.


Verse 4:
G#S A
Well you make me so lonely.
G#S A
You make me weep and moan.
C#/G#S D7/A
Well you make me so lonely.
D7/A G#S A
You make me weep and moan.
A E/G#
I'm hopin' when I find you baby
D7/A A
That you 'still all alone.

|C B|Bb A|(Keyboard Run)

Instrumental #3:
|Csus4 Asus4|Csus4 Asus4|
|E/G# D/F#|E/G# D/F#|
|G#S A|G#S A|

|C B|Bb A|(Guitar & Keyboard Run)


Verse 5:
G#S A
Babe I see that you been walkin',
G#S A
I see another man you found.
C#/G#S D7/A
Babe I see that you been walkin'.
D7/A G#S A
I see another man you found.
A E/G#
I'd rather see you baby,
D7/A A
Sleeping six feet in the ground.

Outro:
|G#S A|G#S A|
|C#S D7/A|C#S D7/A|
|G#S A|G#S A|
|Eb/GS E/G#|Eb/GS E/G#|
|G#S A|G#S A|

|C B|Bb A|(Guitar & Keyboard Run)

[End]

--------------------------------------
Footnotes.

1. KDL do shorten the length of this song in various live performances by omitting Verse 2 and 3.
2. This TAB was officially rejected on 20/3/12.

7:39 pm - 0 comments - 0 Kudos
Wednesday, February 29, 2012

Ben Harper and Relentless 7: Under Pressure (JJJ -

Current mood: artistic

Artist:Ben Harper and Relentless 7
Song: Under Pressure
Written: Queen & David Bowie
Performance: In 2009, Ben Harper played the song as his Like A Version cover for Australian ABC radio station 'triple j'.
URL: http://www.youtube.com/watch?v=7PxTYYzWNCM

Author: Richard Grosser (grosserr@gmail.com)

Tuning: Standard

Chords:
EADGBE
D : ======== XX0232
A/D : ======== XX0220
G/D : ======== X55400
A : ======== X02220
G : ======== 320002
A/C# : ======== X4222X
G/B : ======== X20003
D/F# : ======== 200232
A/E : ======== 002220
F : ======== 133211
G/F : ======== 120003


Intro:
[1: Bass Riff #1]

| D | D | D |

| D | A/D | G/D | A |


Refrain 1:
D
Um, bah, dah.
A/D
Um, Bah, de.
G/D A
Bah, Bah Bah, Ba-beh.


Verse 1:
D A/D
Pressure, pushing down on me.
G/D A/D
Pressing down on you, no man ask for,
D A/C#
Under pressure that burns a building down.
G/B
Splits a family in two,
A
And puts people on the street.


Refrain 2:
D
Bah, dah, deh.
A/D
Bah, dah, deh.
G/D A
De-re-roh, De-re-roh.


Bridge 1:
G
It's the terror of knowing,
A
What this world is about.
G A/D
Watching some good friends,
G A/D
Screaming 'Let me out!'
G A/D A A/D
Pray tomorrow makes us higher.
D/F# G/B A
Pressure on people, people on the streets.


Refrain 3:
D [2: Bass Riff #1]
Day, duh, ereh-roh. Mm-m-m,
A/D
Bah, dah, duh, bup.
G/D A
Ok-ay…


Verse 2:
D
Chippin' around, kick my brains around the floor.
G A D G A
These are the days, It never rains it just pours. Ereh-roh.
D/F#
People on streets, Dah, dah, ereh-roh.
G A
People on streets. Bah, dah, ereh-roh.


Bridge 2:
G
It's the terror of knowing,
A
What this world is about.
G A/D
Watching some good friends,
G A/D
Screaming 'Let me out!'
G A/D A A/D
Pray tomorrow gets me higher.
D/F# G A
Pressure on people, people on the streets.


Verse 3:
N/C G C
Turned away from it all like a blind man.
G C
Sat on a fence but it don't work,
G C
Keep coming up with love but it's so slashed and torn.
A/E A F G/F
Why, why, why?
A/E A F G/F
Why, why, why?
G/F
Love, love, love!
A/E
Love, love, love!


Verse 4:
A/E
Insanity laughs under pressure we're cracking,
D G A
Can't we give ourselves one more chance?
D G A
Why can't we give love that one more chance?


Refrain 4:
D
Why can't we give love,
G/B A
Give love, give love?


Verse 5:
D G/B A D
'Cause love's such an old-fashioned word,
A/C# G
And love dares us to care.
A D A
The people on the edge of the night.


Refrain 5:
G A
And love dares you to change our way of,
D A
Caring about ourselves.


Coda:
G A
This is our last dance,
G A
This is our last dance.
D/F# G A
This is ourselves,
D [3: Bass Riff #1 ]
Under pressure.
D
Under pressure.
D
Under pressure.
D
Pressure.

[End]

--------------------------------------
Footnotes.

1, 2 & 3: Bass Riff #1.

G ||----------------------------------
D ||----------------------------------
A ||--5--5-5-5--5-5---5--5-5-5--5-5---
E ||----------------5---------------5-

Corrections.
1. Note that all corrections to this TAB were previously executed by the author. RG 24/02/12.
2. This TAB was officially rejected on 29/02/12.


12:57 pm - 0 comments - 0 Kudos
Tuesday, November 08, 2011

House of Cards: The Band of Joy

Current mood: annoyed

House of Cards

Artist: Robert Plant & The Band of Joy
Song: House of Cards
Live Performance from the BBC's "Later… with Jools Holland".
Youtube: http://www.youtube.com/watch?v=MC4ye3MeWgg&fea ture=autoshare
Original: Richard & Linda Thompson formerly of Fairport Convention (UK).
Album 'First Light' (1978).

Author: Tab authored by rikigo [grosserr@gmail.com]

Tuning: Standard

C ======== 332010
Am7 ======== XX2010
Dsus2 ======== XX0233
G ======== 320033


Intro:
Lead Guitar 1
E||--------6-8---8--10--12--12-12--12-12--12-12--1 2-12
B||---8-8--8-8---8--00--00--00-00--00-00--00-00--0 0-00
G||---0-0--0-0---0--00--00--00-00--00-00--00-00--0 0-00
D||----------------------------------------------- ----
A||----------------------------------------------- ----
E||----------------------------------------------- ----

E||---10-10--10-10--10-10--10-10--8-8--8-8--8-8--8 -8--
B||---00-00--00-00--00-00--00-00--8-8--8-8--8-8--8 -8--
G||---00-00--00-00--00-00--00-00--0-0--0-0--0-0--0 -0--
D||----------------------------------------------- ----
A||----------------------------------------------- ----
E||----------------------------------------------- ----

Rhythm Guitar
G Am7 Dsus2 G
(Repeat Lead Guitar 1)
Bass Guitar 1
G||----------------------------------------------- ----
D||-----5--5--5--4----5--5--5--4------------------ ----
A||---5--5--5--5----5--5--5--5-------------------- ----
E||----------------------------------------------- ----

G Am7 Dsus2 G
(Repeat Bass Guitar 1)

Verse 1:
G Am7 Dsus2 G
Oh the rain is falling,
G Am7 Dsus2 G
And the wild wind roar.
G Am7 Dsus2 G
It'll shake your windows,
G Am7 Dsus2 G
And rattle your doors.

Bass (Verse Line)
House of Cards

Artist: Robert Plant & The Band of Joy
Song: House of Cards
Live Performance from the BBC's "Later… with Jools Holland".
Youtube: http://www.youtube.com/watch?v=MC4ye3MeWgg&fea ture=autoshare
Original: Richard & Linda Thompson formerly of Fairport Convention (UK).
Album 'First Light' (1978).

Author: Tab authored by rikigo [grosserr@gmail.com]

Tuning: Standard

C ======== 332010
Am7 ======== XX2010
G ======== 320033
G5 ======== XXX033
C/G ======== XXX010

Intro:
Lead Guitar 1
E||--------6-8---8--10--12--12-12--12-12--12-12--1 2-12
B||---8-8--8-8---8--00--00--00-00--00-00--00-00--0 0-00
G||---0-0--0-0---0--00--00--00-00--00-00--00-00--0 0-00
D||----------------------------------------------- ----
A||----------------------------------------------- ----
E||----------------------------------------------- ----

E||---10-10--10-10--10-10--10-10--8-8--8-8--8-8--8 -8--
B||---00-00--00-00--00-00--00-00--8-8--8-8--8-8--8 -8--
G||---00-00--00-00--00-00--00-00--0-0--0-0--0-0--0 -0--
D||----------------------------------------------- ----
A||----------------------------------------------- ----
E||----------------------------------------------- ----

Rhythm Guitar
G Am7 Dsus2 G
(Repeat Lead Guitar 1)
Bass Guitar 1
G||----------------------------------------------- ----
D||-----5--5--5--4-----5--5--5--4----------------- ----
A||---5--5--5--5-----5--5--5--5------------------- ----
E||----------------------------------------------- ----

G Am7 Dsus2 G
(Repeat Bass Guitar 1)

Verse 1:
G Am7 Dsus2 G
Oh the rain is falling,
G Am7 Dsus2 G
And the wild wind roar.
G Am7 Dsus2 G
It'll shake your windows,
G Am7 Dsus2 G
And rattle your doors.

Bass (Verse Line)
G||----------------------------------------------- ----
D||-----5--5--5--4-----5--5--5--4----------------- ----
A||---5--5--5--5-----5--5--5--5------------------- ----
E||----------------------------------------------- ----


Chorus 1:
C Am7 G
Ah blow down this house of cards,
C Am7 G
Blow down this house of cards.

Bass (Chorus Line)
G||---5--5--5--5---------------------------------- ----
D||---------------7--7--7--7--5--5--5--5---------- ----
A||----------------------------------------------- ----
E||----------------------------------------------- ----



Verse 2:
G Am7 Dsus2 G
They're washing the streets (blow blow down),
G Am7 Dsus2 G
With the blood of your kind (blow blow down).
G Am7 Dsus2 G
Just look over your shoulder (blow blow down),
G Am7 C
They are right behind.

Chorus 2:
C Am7 G
Ah blow down this house of cards,
C Am7 G
Blow down this house of cards.

Instrumental Riff 1:
G Am7 Dsus2 G
E||------------8--10--12--12-12--12-12--12-12--12- 12--
B||------------8--00--00--00-00--00-00--00-00--00- 00--
G||------------0--00--00--00-00--00-00--00-00--00- 00--
D||----------------------------------------------- ----
A||----------------------------------------------- ----
E||----------------------------------------------- ----

G||----------------------------------------------- ----
D||-----5--5--5--4-------5--5--5--4--------------- ----
A||---5--5--5--5--5----5--5--5--5--5-------------- ----
E||----------------------------------------------- ----

G Am7 Dsus2 G
E||---10-10--10-10--10-10--10-10--8-8--8-8--8-8--8 -8--
B||---00-00--00-00--00-00--00-00--8-8--8-8--8-8--8 -8--
G||---00-00--00-00--00-00--00-00--0-0--0-0--0-0--0 -0--
D||----------------------------------------------- ----
A||----------------------------------------------- ----
E||----------------------------------------------- ----

G||----------------------------------------------- ----
D||-----5--5--5--4-------5--5--5--4--------------- ----
A||---5--5--5--5--5----5--5--5--5--5-------------- ----
E||----------------------------------------------- ----

G Am7 Dsus2 G
E||------------8--10--12--12-12--12-12--12-12--12- 12--
B||------------8--00--00--00-00--00-00--00-00--00- 00--
G||------------0--00--00--00-00--00-00--00-00--00- 00--
D||----------------------------------------------- ----
A||----------------------------------------------- ----
E||----------------------------------------------- ----

G||----------------------------------------------- ----
D||-----5--5--5--4----5--5--5--4------------------ ----
A||---5--5--5--5-----5--5--5--5------------------- ----
E||----------------------------------------------- ----

G Am7 Dsus2 G
E||---10-10--10-10--10-10--10-10--8-8--8-8--8-8--8 -8--
B||---00-00--00-00--00-00--00-00--8-8--8-8--8-8--8 -8--
G||---00-00--00-00--00-00--00-00--0-0--0-0--0-0--0 -0--
D||----------------------------------------------- ----
A||----------------------------------------------- ----
E||----------------------------------------------- ----

G||----------------------------------------------- ----
D||-----5--5--5--4----5--5--5--4------------------ ----
A||---5--5--5--5-----5--5--5--5------------------- ----
E||----------------------------------------------- ----


Refrain:
Am7 Dsus2 G
Ah-ha-haa-ah,
Am7 Dsus2 G
Ah-ha-haa-ah.

Instrumental Refrain:
Am7 Dsus2 G
Am7 Dsus2 G


Verse 3:
G Am7 Dsus2 G
The birds are wheeling,
G Am7 Dsus2 G
Up above your head.
G Am7 Dsus2 G
Ah your days are numbered,
G Am7 Dsus2 G
You're as good as dead.


Verse 4:
G Am7 Dsus2 G
This very fine house.
G Am7 Dsus2 G
Of great renown.
G Am7 Dsus2 G
It's cracked and shaking,
G Am7 Dsus2 G
And a-tumbling down.


Chorus 3:
C Am7 G
Oh blow down this house of cards,
C Am7 G
Blow down this house of cards.
C Am7 G
Blow down this house of cards,
C Am7 G
Oh blow down this house of cards.

Instrumental Riff 2:
G Am7 Dsus2 G
E||-------6-8--8--8--10--10-12--12-8--8--10--10-12 --12
B||---8-8-8-8--8--8--10--10-12--12-8--8--10--10-12 --12
G||---0-0-0-0--0--0--00--00-00--00-0--0--00--00-00 --00
D||----------------------------------------------- ----
A||----------------------------------------------- ----
E||----------------------------------------------- ----

G||-------5--5--5--5------------------------------ ----D||-------------------7--7--7--7--5--5--5--5-- --------
A||----------------------------------------------- ----
E||----------------------------------------------- ----


Coda Refrain:
Am7 Dsus2 G
Oh-oh-haa-ah,
Am7 Dsus2 G
Oh-oh-haa-ah,
Am7 Dsus2 G
Oh-oh-haa-ah,
Am7 Dsus2 G
Oh-oh-haa-ah.


(End)


Chorus 1:
C Am7 G
Ah blow down this house of cards,
C Am7 G
Blow down this house of cards.

Bass (Chorus Line)
G||---5--5--5--5---------------------------------- ----
D||---------------7--7--7--7--5--5--5--5---------- ----
A||----------------------------------------------- ----
E||----------------------------------------------- ----



Verse 2:
G Am7 Dsus2 G
They're washing the streets (blow blow down),
G Am7 Dsus2 G
With the blood of your kind (blow blow down).
G Am7 Dsus2 G
Just look over your shoulder (blow blow down),
G Am7 C
They are right behind.

Chorus 2:
C Am7 G
Ah blow down this house of cards,
C Am7 G
Blow down this house of cards.

Instrumental Riff 1:
G Am7 Dsus2 G
E||------------8--10--12--12-12--12-12--12-12--12- 12--
B||------------8--00--00--00-00--00-00--00-00--00- 00--
G||------------0--00--00--00-00--00-00--00-00--00- 00--
D||----------------------------------------------- ----
A||----------------------------------------------- ----
E||----------------------------------------------- ----

G||----------------------------------------------- ----
D||-----5--5--5--4----5--5--5--4------------------ ----
A||---5--5--5--5-----5--5--5--5------------------- ----
E||----------------------------------------------- ----


G Am7 Dsus2 G
E||---10-10--10-10--10-10--10-10--8-8--8-8--8-8--8 -8--
B||---00-00--00-00--00-00--00-00--8-8--8-8--8-8--8 -8--
G||---00-00--00-00--00-00--00-00--0-0--0-0--0-0--0 -0--
D||----------------------------------------------- ----
A||----------------------------------------------- ----
E||----------------------------------------------- ----

G||----------------------------------------------- ----
D||-----5--5--5--4----5--5--5--4------------------ ----
A||---5--5--5--5-----5--5--5--5------------------- ----
E||----------------------------------------------- ----


G Am7 Dsus2 G
E||------------8--10--12--12-12--12-12--12-12--12- 12--
B||------------8--00--00--00-00--00-00--00-00--00- 00--
G||------------0--00--00--00-00--00-00--00-00--00- 00--
D||----------------------------------------------- ----
A||----------------------------------------------- ----
E||----------------------------------------------- ----

G||----------------------------------------------- ----
D||-----5--5--5--4----5--5--5--4------------------ ----
A||---5--5--5--5-----5--5--5--5------------------- ----
E||----------------------------------------------- ----


G Am7 Dsus2 G
E||---10-10--10-10--10-10--10-10--8-8--8-8--8-8--8 -8--
B||---00-00--00-00--00-00--00-00--8-8--8-8--8-8--8 -8--
G||---00-00--00-00--00-00--00-00--0-0--0-0--0-0--0 -0--
D||----------------------------------------------- ----
A||----------------------------------------------- ----
E||----------------------------------------------- ----

G||----------------------------------------------- ----
D||-----5--5--5--4----5--5--5--4------------------ ----
A||---5--5--5--5-----5--5--5--5------------------- ----
E||----------------------------------------------- ----


Refrain:
Am7 Dsus2 G
Ah-ha-haa-ah,
Am7 Dsus2 G
Ah-ha-haa-ah.

Instrumental Refrain:
Am7 Dsus2 G
Am7 Dsus2 G


Verse 3:
G Am7 Dsus2 G
The birds are wheeling,
G Am7 Dsus2 G
Up above your head.
G Am7 Dsus2 G
Ah your days are numbered,
G Am7 Dsus2 G
You're as good as dead.


Verse 4:
G Am7 Dsus2 G
This very fine house.
G Am7 Dsus2 G
Of great renown.
G Am7 Dsus2 G
It's cracked and shaking,
G Am7 Dsus2 G
And a-tumbling down.


Chorus 3:
C Am7 G
Oh blow down this house of cards,
C Am7 G
Blow down this house of cards.
C Am7&n
12:54 am - 0 comments - 0 Kudos
First page | Previous 10 blogs