boofie93

Subscribe!
Contacting boofie93
Send message Forward
Add to friends Favorites
Add to group Block user
Monday, November 03, 2008

First solo

Views: 134
Comments: 2
Haha, I've finally finished my solo:p. Now you're probably wondering, how hard can it be? Well I can tell you that it was not easy. First of all it was a homework(:O) for wednesday when we have music, and second of all it's not a song that I was able to pick. Our teacher picked it and it sucks :p. The song is see you later alligator by Bill Haley and the comets i think i'm not sure.
Well anyway, I've made it now so here it is for you that can read tabs:
 
  A
e|--5-5-8-5----------------------------------|---- --------------|--------|
B|----------8-5------------------------------|---- --------------|--------|
G|--------------7-5--------------------------|---- --------------|--------|
D|------------------7-5----------------------|---- --------------|7-5-7-5|
A|----------------------7-5------------------|7-5- 7-5-7-5-7-5|--------|
E|--------------------------8-5-8-5-8-5-8-5|------ -------------|--------|
 
  D                                    A    E7
e|------------------8p5---|-5--|-7-|
B|----------8-5-8-5------|-5--|-9-|
G|--7-5-7-5--------------|-6--|-7-|
D|-------------------------|-7--|-9-|
A|-------------------------|-7--|-7-|
E|-------------------------|-5--|---|
12:47 pm - 2 comments - 0 Kudos - Report!
Comments
djuk.dejan wrote on Nov 5th, 2008 7:18pm

and thats a solo? its okay if this is your first one i guess but... its kinda too simple and boring..

quote

boofie93a wrote on Nov 6th, 2008 6:00pm

djuk.dejan wrote on Nov 5th, 2008 at 8:18pm :


and thats a solo? its okay if this is your first one i guess but... its kinda too simple and boring..

I'm working more on it, and that's just the lengh of a chorus, I think I'm gonna add some more stuff on it. Any1 know something you can use to the chords A and E7 in blues?

quote

Post your comment
Expand