Nor'Easterbass

Nor'Easterbass's Profile Comments

Comments: 2, viewing 1 - 2

Nor'Easterbassa wrote on Feb 12th, 2008 4:30am

looking back at this...drop Cb is drop B there guy...and i SAID they play in that in the tab, i believe...lulz

quote

ryderatlantic wrote on Sep 4th, 2007 4:13am

hey, i was just looking at your bleeding through tab for tragedy of empty streets, and i found that it sounds more to the original if you tune your guitar to drop Cb. i'm not sure if that makes sense or not, but tune your guitar 2 1/2 steps down and then drop your top string down two more steps, like drop d tuning. anyway, same open triplets in the opening riff, but instead of
e|----------------------------------------------- --------------------|
B|----------------------------------------------- --------------------|
G|----------------------------------------------- --------------------|
D|----------------------------------------------- --------------------|
A|5-2-3-6-3-2------------------------------------ -----------------|
E|5-2-3-6-3-2------------------------------------ -----------------|
B|3-0-1-4-1-0------------------------------------ -----------------|

it would be

A|3-0-1-4-1-0-------|
E|3-0-1-4-1-0-------|
B|3-0-1-4-1-0-------|

i have some of the other parts figured out but not completely. let me know what you think.

jeremy.

quote

Post your comment :
Expand