MetalSaint

Subscribe!
Contacting MetalSaint
Send message Forward
Add to friends Favorites
Add to group Block user
 Blog archive :

First | Last

Next 10

Previous 10

Advanced view
from date
to date
on date
Wednesday, October 10, 2012

Starting the morning!

I'm a guy for now jobless :D Sitting home! starting my morning practicing my guitar because I wanted to be an Advanced guitarist and to be able to play the songs! that when I first hear it. It's just made me to get my ass up and buy a guitar! and start practicing! Thanks for Michael Amott! 
3:54 am - 0 comments - 0 Kudos
Wednesday, October 10, 2012

Hum!

Current mood: bitchy

I don't know why here! It's takes to long for someone new here to get his tabs approved! Do you have this problem ?
3:54 am - 1 comments - 0 Kudos
Wednesday, October 10, 2012

It's a new day!

Current mood: accomplished

Today I was surfing some websites for some scales! well :D  I found this scales easy.

E|--------------5-8-------------------|
B|--------------5-7-------------------|
G|-------------5-7--------------------|
D|-------------5-7--------------------|
A|-------------5-7--------------------|
E|-------------5-8--------------------|

See it's easy :D

But without I'm noticing I automatically changed into this:

E|---------------5-7------------------|
B|---------------5-8------------------|
G|--------------5-7------------------|
D|--------------5-8-------------------|
A|--------------5-7-------------------|
E|-------------5-8--------------------|

I think now It's ok! :D

3:54 am - 0 comments - 0 Kudos