Metal Neck

Subscribe!
Contacting Metal Neck
Send message Forward
Add to friends Favorites
Add to group Block user
Tuesday, July 08, 2008

The best tabs for Smoke on the Water

Current mood: awake

Views: 290
Comments: 1
<!--StartFragment-->SMOKE ON THE WATER
                           As recorded by Deep Purple
                       (From the 1972 Album MACHINE HEAD)


Gtr I (E A D G B E) - 'Ritchie Balckmore lead'
Gtr II (E A D G B E) - 'Rhythm'

   Intro
    Q=112
   4/4
    Gtr I
    E E E E Q  E E   E E E E Q  Q    E E E E Q  E E   E Q.   +Q   Q    5x
||-----------------|---------------|-------------- --|------------------||
||o----------------|---------------|-------------- --|-----------------o||
||--0---3---5----0-|---3---6-5-----|-0---3---5---- 3-|---0----(0)-------||
||--0---3---5----0-|---3---6-5-----|-0---3---5---- 3-|---0----(0)-------||
||o----------------|---------------|-------------- --|-----------------o||
||-----------------|---------------|-------------- --|------------------||


  E E E E Q  E E   E E E E Q  Q    E E E E Q  E E   E Q.   +Q    Q
|----------------|---------------|---------------- |--------------------|
|----------------|---------------|---------------- |--------------------|
|-0---3---5----0-|---3---6-5-----|-0---3---5----3- |---0----(0)---------|
|-0---3---5----0-|---3---6-5-----|-0---3---5----3- |---0----(0)--(5)\---|
|----------------|---------------|---------------- |-------------(5)\---|
|----------------|---------------|---------------- |--------------------|


Verse
  PM----------------------------------------------|      PM------------|
  E E e E E E e E   E E e E E E e E   E E e E E E e E   E E e E E E e E
|-----------------|-----------------|------------- ----|------------------|
|-----------------|-----------------|------------- ----|------------------|
|-----------------|-----------------|-0---0------- ----|---------0---0----|
|-----5-------5---|-----5-------5---|---0-----3--- 3---|-----5-----0------|
|---5-------5-----|---5-------5-----|-----------3- ----|---5--------------|
|-3-------3-------|-3-------3-------|------------- ----|-3----------------|


  PM------------------------------------------------ ------------------|
  E E e E E E e E   E E e E E E e E   E E e E E E e E   E E e E E E e E
|-----------------|-----------------|------------- ----|------------------|
|-----------------|-----------------|------------- ----|------------------|
|-----------------|-----------------|------------- ----|------------------|
|-----5---5---5---|-----5-------5---|-----5------- 5---|-----5-------3----|
|---5-------5-----|---5-------5-----|---5-------5- ----|---5-------3------|
|-3---------------|-3-------3-------|-3-------3--- ----|-3-------1--------|


  PM------------------------------------------------ ------------------|
  E E e E E E e E   E E e E E E e E   E E e E E E e E   E E e E E E e E
|-----------------|-----------------|------------- ----|------------------|
|-----------------|-----------------|------------- ----|------------------|
|-----------------|-----------------|------------- ----|------------------|
|-----5-------5---|-----5-------5---|-----5------- 5---|-----5---3---3----|
|---5-------5-----|---5-------5-----|---5-------5- ----|---5-------3------|
|-3-------3-------|-3-------3-------|-3-------3--- ----|-3----------------|


  PM------------------------------------------------ ---
  E E e E E E e E   E E e E E E e E   E E e E E E e E
|-----------------|-----------------|------------- ----|
|-----------------|-----------------|------------- ----|
|-----------------|-----------------|------------- ----|
|-----5-------5---|-----5-------5---|-----5------- 5---|
|---5-------5-----|---5-------5-----|---5-------5- ----|
|-3-------3-------|-3-------3-------|-3-------3--- ----|


---------------------------------|
  E E e E E E e E   E E e E E E e E
|-----------------|-------------------||
|-----------------|-------------------||
|-----------------|-------------------||
|-----5---3---3---|-----5-------5-----||
|---5-------3-----|---5-------5-------||
|-3---------------|-3-------3---------||


Chorus
  Q  Q  H      Q  Q  H      Q  E E +H
|------------|------------|---------------|
|------------|------------|---------------|
|-------5----|------------|------0-(0)----|
|----5-------|-------6----|----0----------|
|-3----------|----6-------|---------------|
|------------|-4----------|-3-------------|


  +W           Q  Q  H      Q  Q  Q.  E
|------------|------------|---------------|
|------------|------------|---------------|
|-(0)--------|-------5----|---------------|
|------------|----5-------|-------6-------|
|------------|-3----------|----6----------|
|------------|------------|-4-------------|


  E E E E Q  E E   E E E E Q.   E   E E E E Q.   E   +E  Q.   +Q   Q
|----------------|----------------|--------------- -|-------------------|
|----------------|----------------|--------------- -|-------------------|
|-----3---5------|---3---6-5------|-----3---5----3 -|-(3)---------------|
|-5---3---5----5-|---3---6-5------|-5---3---5----3 -|-(3)-5----(5)------|
|-5------------5-|----------------|-5------------- -|-----5----(5)------|
|----------------|----------------|--------------- -|-------------------|


  E E E E Q  E E   E E E E Q  Q    E E E E Q.   E   E Q.   +Q   Q
|----------------|---------------|---------------- |------------------||
|----------------|---------------|---------------- |------------------||
|-----3---5------|---3---6-5-----|-----3---5----3- |-------------5\---||
|-5---3---5----5-|---3---6-5-----|-5---3---5----3- |---5----(5)--5\---||
|-5------------5-|---------------|-5-------------- |---5----(5)--5\---||
|----------------|---------------|---------------- |------------------||


   Verse
    E E e E E E e E   E E e E E E e E   E E e E E E e E   E E e E E E e E  3x
||------------------|-----------------|----------- ------|------------------||
||o-----------------|-----------------|----------- ------|-----------------o||
||------------------|-----------------|----------- ------|------------------||
||------5-------5---|-----5-------5---|-----5----- --3---|-----5-------5----||
||o---5-------5-----|---5-------5-----|---5------- 3-----|---5-------5-----o||
||--3-------3-------|-3-------3-------|-3-------1- ------|-3-------3--------||


Chorus
                            <
  Q  Q  H      Q  Q  H      W          +W           Q  Q  H      Q  Q  Q.   E
|------------|------------|----------|------------ |------------|---------------|
|------------|------------|----------|------------ |------------|---------------|
|-------5----|------------|-0--------|-(0)-------- |-------5----|---------------|
|----5-------|-------6----|----------|------------ |----5-------|-------6-------|
|-3----------|----6-------|----------|------------ |-3----------|----6----------|
|------------|-4----------|-3--------|-(3)-------- |------------|-4-------------|


  E E E E Q  E E   E E E E Q.   E   E E E E Q.   E   +E  Q.   +Q   Q
|----------------|----------------|--------------- -|-----------------|
|----------------|----------------|--------------- -|-----------------|
|-----3---5------|---3---6-5------|-----3---5----3 -|-(3)-------------|
|-5---3---5----5-|---3---6-5------|-5---3---5----3 -|-(3)-5----(5)----|
|-5------------5-|----------------|-5------------- -|-----5----(5)----|
|----------------|----------------|--------------- -|-----------------|


  E E E E Q  E E   E E E E Q.   E   E E E E Q.   E   E  Q.   +Q    E   E
|----------------|----------------|--------------- -|----------------------||
|----------------|----------------|--------------- -|----------------------||
|-----3---5------|---3---6-5------|-----3---5----3 -|------------------10--||
|-5---3---5----5-|---3---6-5------|-5---3---5----3 -|----5----(5)--12------||
|-5------------5-|----------------|-5------------- -|----5----(5)----------||
|----------------|----------------|--------------- -|----------------------||
|
| Gtr II
| W                W                W                H.            Q
|----------------|----------------|--------------- -|----------------------||
|----------------|----------------|--------------- -|----------------------||
|----------------|----------------|--------------- -|----------------------||
|----------------|----------------|--------------- -|---------------8\-----||
|----------------|----------------|--------------- -|---------------8\-----||
|----------------|----------------|--------------- -|---------------8\-----||


Guitar Solo
   ~~                                   ~~~
   H        +E  E  a       +E   E    E  Q.      E      q    E
|---------------------------------|--------------- ------------|
|-----------------13pb15==(13)r13p|=11---------11b 11.5--------|
|-12-------(12)-------------------|----12--------- ------------|
|---------------------------------|--------------- ---------12-|
|---------------------------------|--------------- ------------|
|---------------------------------|--------------- ------------|
|
|  PM------------------------------------------------ ----------
|  E E E E   E  E  Q                 E  E  e E  E      E e  E
|---------------------------------|--------------- ------------|
|---------------------------------|--------------- ------------|
|---------------------------------|--------------- ------------|
|------5-----5--------------------|--5-----5------ -------5----|
|----5---5------5-----------------|-----5--------- -----5------|
|--3------------------------------|-------------3- ------------|


                    ~~~~
   E  e  E  S      +S   +Q      e  E
|------------------------------------|
|-------11-11b13==(11)-(11)r---11-10-|
|-10-12------------------------------|
|------------------------------------|
|------------------------------------|
|------------------------------------|
|
|------------------------------|
|  E  E  e  E       E    E   e  E
|------------------------------------|
|------------------------------------|
|--------5-------------------5-------|
|-----5------------------5-----------|
|--3----------------3----------------|
|------------------------------------|


                                                                ~~~~
         |--3--|
   e  e  S  S  S  E  e  e e  e    E  a       +e    E  a       +E   +Q     E E
|------------------------------|------------------ ----------------------------|
|------------------------------|------------------ --------------------------8-|
|-12-14-12h14p12s10-12-10-8-10-|-10-10pb12==(10)r- 10-10pb12==(10)-(10)r-------|
|------------------------------|------------------ ----------------------------|
|------------------------------|------------------ ----------------------------|
|------------------------------|------------------ ----------------------------|
|
|  PM------------------------------------------------ --------------------------
|  E  E  e        E  E  E E  E    E           E    e           E    E   E e E
|------------------------------|------------------ ----------------------------|
|------------------------------|------------------ ----------------------------|
|------------------------------|------------------ ----------------------------|
|--------5----------------3h=5-|------------------ -5----------------------5---|
|-----5-----------------5------|--------------5--- ----------------------5-----|
|--3-----------------3---------|--3--------------- ------------------3---------|


                              ~~~~
   E  a  +e        E  a      +E   +E   e e  E
|--------------------------------------8-------|
|-11-11-(11)pb13==11-11b13==(11)-(11)r---8-11--|
|----------------------------------------------|
|----------------------------------------------|
|----------------------------------------------|
|----------------------------------------------|
|
|------------------------------------------|
|  E      E        e          E    E   E e  E
|----------------------------------------------|
|----------------------------------------------|
|----------------------------------------------|
|------------------5---------------------5-----|
|---------5----------------------------5-------|
|--3-------------------------------3-----------|


   a      +S   S S  S  S S  S   S S  S  S S S  S S S
|----------------8-------------------------------- ---|
|--------------8---11-10-8------------------------ ---|
|-10b12==(10)r-------------11--10p8----10-8-7----- ---|
|-----------------------------------10--------10-8 -7-|
|------------------------------------------------- ---|
|------------------------------------------------- ---|
|
|          PM-------------------------------|
|          E     E     e    E     E     E   e    E
|------------------------------------------------- ---|
|------------------------------------------------- ---|
|----------------------5--------------------3----- ---|
|----------------5---------(5)----------5--------- ---|
|----------3----------------------3--------------- ---|
|------------------------------------------------- ---|


                               ~
   E e e  e e e e e   E    +S  S +Q    E E E E
|-------------------|--------------------------|
|-------------------|--------------------------|
|-------------8-7-5-|-3b5==(3)r3-(3)---5-3-2-3-|
|----8-7-10-8-------|--------------------------|
|-10----------------|--------------------------|
|-------------------|--------------------------|
|
|  PM----------------------------------------|
|  E E e  E E E e E   E     E     e  E E E e E
|-------------------|--------------------------|
|-------------------|--------------------------|
|-------------------|--------------------------|
|------5--------5---|-------------5--------5---|
|----5--------5-----|-------5----------3-5-----|
|--3--------3-------|-3------------------------|


           \2.5    |
                                                                   |---3---|
  E E E E +E.     +S  +Q      a   +S  S S a   +S  S S S S S S S S S s E   E
|---------------------------|-----------3--------- 3-3------------------------|
|---------------------------|---------3---6b8-(6)- ----6-5-3------------------|
|-2-3-2-0-(0)-----(0)-(0)---|-5b7-(5)------------- ----------6-5p3---5-----3--|
|---------------------------|--------------------- ----------------5----------|
|---------------------------|--------------------- ---------------------------|
|---------------------------|--------------------- ---------------------------|
|
| PM------------------------------------------------ --------------|
| E E e E  E   
4:53 pm - 1 comments - 0 Kudos - Report!
Comments
Epic Failure wrote on Jul 8th, 2008 5:00pm

Nice Tab.

quote

Post your comment
Expand