Kurt-Corgan

Subscribe!
Contacting Kurt-Corgan
Send message Forward
Add to friends Favorites
Add to group Block user
 Who gave a Kudo :
olesiaa (2)
Tuesday, December 25, 2012

Now Now - Thread

Views: 64
Comments: 0
Since UG rejected this tab, I'll keep it here in case anyone wants it ever, maybe they'll be able to find it. The other tab for this uses the wrong chords/tunings.

-------------------------------------------------- -------------
THREAD - Now Now
-------------------------------------------------- -------------
Tabbed by: Patrick Bozek

Tuning: DAC#EBe

The other tab has the song in the wrong tuning. cacie and Jess play it this way. Just listen to the record for an idea of the strumming pattern (mostly downstrokes) and how many of each note, it'd take up way too much space to just right the same  note over and over again. If you want an idea of how the song is played live, check out their performance on 89.3 The Current:


Intro: Guitar 1
e |------------------|  x2
B |------------------|
E |------------------|
C#|--8---10--8---5---|
A |--0---9---7---0---|
D |--0---9---7---0---|

Intro: Guitar 2
e |------------------|  x2
B |------------------|
E |------------------|
C#|--12--13--15--17--|
A |------------------|
D |------------------|

Verse:
e |-----------------|   x4
B |-----------------|
E |-----------------|
C#|--12---13---12---|
A |--12----9----7---|
D |--12----9----7---|

Chorus: Guitar 1
e |--------------------------|
B |--------------------------|
E |--------------------------|
C#|--8--8--7--8--8--8--7--8--|
A |--5--4--7--5--5--4--7--5--|
D |--------------------------|

Chorus: Guitar 2

e |--------------------------|
B |--------------------------|
E |--------------------------|
C#|-----8--8-----5--3--------|
A |--0--9--7--0--2--4--2--0--|
D |--0--------0--------2--0--|

Solo/outro: Guitar 1 (play 4 times, skip the second line the fourth time)
e |------------------------------------------------- -------|
B |------------------------------------------------- -------|
E |------------------------------------------------- -------|
C#|-12-12-12-12--9--9--9--9-16-16-16-16--4--4--2-- 2--7--7--|
A |-12-12-12-12--9--9--9--9-16-16-16-16--4--4--2--2- -7--7--|
D |-12-12-12-12--9--9--9--9-16-16-16-16--4--4--2--2- -7--7--|

e |------------------------------------------------- -------|
B |------------------------------------------------- -------|
E |-10-10-10-10-10-10-10-10-10-10-10-10-10-10-10-10- -------|
C#|--9--9--9--9--9--9--9--9--9--9--9--9--9--9--9-- 9--------|
A |--8--8--8--8--8--8--8--8--8--8--8--8--8--8--8--8- -------|
D |--0--0--0--0--0--0--0--0--0--0--0--0--0--0--0--0- -------|

Solo/outro: Guitar 2 (play 4 times, skip the second line the fourth time)
e |-------------------------------------------14-14- -------|
B |-------------------------14-14-14-14------------- 14-14--|
E |-14-14-14-14-12-12-12-12------------------------- -------|
C#|-------------------------------------12-12----- ---------|
A |------------------------------------------------- -------|
D |------------------------------------------------- -------|

e |------------------------------------------------- -------|
B |-------14--------14--------14--------14---------- 14-----|
E |-14-14-----14-14-----14-14-----14-14-----14--14-- -------|
C#|----------------------------------------------- ---------|
A |------------------------------------------------- -------|
D |------------------------------------------------- -------|

Interlude: Guitar 2

e |--------------------------|
B |--------------------------|
E |--------------------------|
C#|-----8--8-----5--3--------|
A |--0--9--7--0--2--4--2--0--|
D |--0--------0--------2--0--|




Have fun.

6:07 pm - 0 comments - 2 Kudos - Report!
Post your comment
Expand