Hergiswi

Subscribe!
Contacting Hergiswi
Send message Forward
Add to friends Favorites
Add to group Block user
 Blog archive :

First | Last

Next 10

Previous 10

Advanced view
from date
to date
on date
Friday, February 27, 2009

My Enzyte tab made the official site!

I was just googling my username (because I'm a tool) and I happened to come across this link: http://enzyte.herbalyzer.com/enzyte-song.html

What this seems to be is some comprehensive list of links related to the Enzyte song, and it appears to be the official website. The site apparently takes sites from public sources, and it doesn't look automated (to me, at least), which means my tab was good enough for them to pick. Woohoo!
8:34 pm - 1 comments - 2 Kudos
Saturday, January 19, 2008

Enzyte tab

Horrifyingly, I've recieved numerous requests for a tab for the Enzyte song. Since I'm a decent person, I'll help out some of those crazy youngsters interested in using the power of natural male enhancement in their music.

G-----5--3--1--0--------7--5-----------
D--1--------------1--3-----------------
A--------------------------------------
E--------------------------------------


G-----7--5--1--0---------5--3----------
D--3--------------3--1-----------------
A--------------------------------------
E--------------------------------------


G-----5--3--1--0--------7--5-----------
D--1--------------1--3-----------------
A--------------------------------------
E--------------------------------------

G--1--0-----3--5--1--0--1--------------
D--------3------------------3--1-------
A--------------------------------------
E--------------------------------------

Now, that's it. You'll have to listen to the actual song to get the rhythm down, but if you're a true Enzyte-warrior, you should be able to work it out in no time. Don't just follow my tabs either. Add in your own little additions and tunes to make it your own personal song.
7:00 am - 14 comments - 21 Kudos