Guitarfreak809

Subscribe!
Contacting Guitarfreak809
Send message Forward
Add to friends Favorites
Add to group Block user
Wednesday, June 10, 2009

If You Could Go Anywhere..

Current mood: artistic

Views: 255
Comments: 1
Hey, my band wrote our first song today. It's called "If You Could Go Anywhere". I'm just gonna post my part.If you guys wanna try it out, go wild.Yes, please,please put your own beat into it.
 
Capo at the 6th fret.
Intro:
     C                            Em
E------------------------------------------------- ---------------------|
B----1------1-------1-------0------0--------0--- ----------------------|
G------0-------0--------------0-------0--------- ----------------------|
D----------------------------------------------- -----------------------|
A--3-------3------3-------2------2-------2------ ----------------------|
E----------------------------------------------- -----------------------|
 
      Am                            F
E----------------------------------------------- --------------------|
B----1-------1------1------1-------1----------1- -------------------|
G-------2------2--------------2-------2--------- -------------------| x2
D----------------------------------------------- --------------------|
A--0-------0------0----------------------------- --------------------|
E--------------------------1-----1---------1---- --------------------|
 
 
Sorry, that's all we have right now. Let me know if you like it. If you dont, please. Don't be toooo harsh.
:confused: 
2:21 am - 1 comments - 0 Kudos - Report!
Comments
aimeewhite wrote on Jul 31st, 2009 1:52am

hey i lov ur song, i was really bored so i tryed 2 play it i like it

quote

Post your comment
Expand