Circle

Subscribe!
Contacting Circle
Send message Forward
Add to friends Favorites
Add to group Block user
Saturday, August 02, 2008

Metallica Solo Death Magnetic (New Album) #2

Views: 340
Comments: 0
hey there!
its been a while, but here I am again with a new tab from the solo played by Kirk on the fly on the wall vid from july 18.

before Kirk starts playing the solo over the rhythm parts he plays this little doodle:

e|-----------------|
B|-----------------|
G|-9---7-9---7-12--|
D|-----------------|
A|-7---5-7---5-10--|
E|-----------------|

then he starts with the real deal:

e|--------------------------------|
B|--------------------------------|
G|-19---17-19---------------------|
D|-------------<slide down neck>--|
A|-17---15-17---------------------|
E|--------------------------------|

e|------------------------------------------------ --|
B|----------------------------------------------- ---|
G|-------12----12-14-14^16\/14-14p12----12------- ---|
D|-12h14----14-----------------------14----14-12- ---|
A|----------------------------------------------- 14-|
E|----------------------------------------------- ---|

e|------------------------------------------------ --|
B|----------------------------------------------- ---|
G|-------12----12-14-14^16\/14-14p12----12----12- ---|
D|-12h14----14-----------------------14----14---- ---|
A|----------------------------------------------- ---|
E|----------------------------------------------- ---|

e|------------------------------------------------ ----------------|
B|-------12-15p12-------12-15p12---{15p13p12-
15p13p12-15p13p12}---|
G|-14^16----------14^16-------------------------- -----------------|
D|----------------------------------------------- -----------------|
A|----------------------------------------------- -----------------|
E|----------------------------------------------- -----------------|

between {..} brackets: repeat endless amount of times ;)

so this was it for now..
do you know something from the new album you want me to take a look at? please comment and I'll try my best :D

the new album will be released the 12th of september! cant wait,

have fun with it,,

to be continued..
10:08 am - 0 comments - 0 Kudos - Report!
Post your comment
Expand