Circle

Subscribe!
Contacting Circle
Send message Forward
Add to friends Favorites
Add to group Block user
Monday, July 07, 2008

Metallica solo Death Magnetic (New Album) #1

Views: 418
Comments: 0

in the video from July 4 Lars and a guy from the studio are mixing a solo by Kirk.. First I will give the tabs of all separate parts that are played in the video.. then I will give you my impression of the solo. So lets get rollin'!

in order as shown in the vid:

Legende:

B= bend

R= release bend

H= hammer on

P= pull off

#1

e|----------------------------------------------- ----------------|
B|----------------------------------------------- ----------------|
G|-10-----10-12b14r12p10-12b14r12p10-12b14r12p10- 12b14r12p10-----|
D|----12----------------------------------------- ------------12--|
A|----------------------------------------------- ----------------|
E|----------------------------------------------- ----------------|

#2

e|-------------------------------------------|
B|-------------------------------------13b15-|
G|-12b14r12p10-12b14r12p10-12b14r12p10-------|
D|-------------------------------------------|
A|-------------------------------------------|
E|-------------------------------------------|


#3

e|----------------------------------------|
B|----------------------------------------|
G|-12b14r12p10-12b14r12p10-12b14r12p10----|
D|-------------------------------------12-|
A|----------------------------------------|
E|----------------------------------------|

#4

e|----------------------------------------------- ----------------|
B|----------------------------------------------- ----------------|
G|-10-----10-12b14r12p10-12b14r12p10-12b14r12p10- 12b14r12p10-----|
D|----12----------------------------------------- ------------12--|
A|----------------------------------------------- ----------------|
E|----------------------------------------------- ----------------|

e|----------------------------------------------- -|
B|----------------------------------------------- -|
G|----------10----------------------------------- -|
D|-12p10--------12p10---------------------------- -|
A|-------12-----------12-10--12p10----11-11-11-10 -|
E|---------------------------------13------------ -|

e|-------------------------|
B|----------------10-10-10-|
G|----10----10-12----------|
D|-12----12----------------|
A|-------------------------|
E|-------------------------|



#5
e|----------------------------------------------- -|
B|-9--------------------------------------------- -|
G|-10---and then you get riff mentioned at #1-----|
D|--^-------------------------------------------- -|
A|--|-------------------------------------------- -|
E|--|-------------------------------------------- -|

    {strum this a few times, listen to the vid for the rhythm, its very easy.}

now I will show you how I think (seeing the pieces given to us in the video) the solo will be like on the record:

e|----------------------------------------------- -|
B|-9--------------------------------------------- -|
G|-10---and then you get riff mentioned at #1-----|
D|--^-------------------------------------------- -|
A|--|-------------------------------------------- -|
E|--|-------------------------------------------- -|

    {strum this a few times, listen to the vid for the rhythm, its very easy.}

e|----------------------------------------------- ----------------|
B|----------------------------------------------- ----------------|
G|-10-----10-12b14r12p10-12b14r12p10-12b14r12p10- 12b14r12p10-----|
D|----12----------------------------------------- ------------12--|
A|----------------------------------------------- ----------------|
E|----------------------------------------------- ----------------|

e|----------------------------------------------- ----------------|
B|----------------------------------------------- ------------13b-|
G|-10-----10-12b14r12p10-12b14r12p10-12b14r12p10- 12b14r12p10-----|
D|----12----------------------------------------- ----------------|
A|----------------------------------------------- ----------------|
E|----------------------------------------------- ----------------|

e|----------------------------------------------- ----------------|
B|----------------------------------------------- ----------------|
G|-10-----10-12b14r12p10-12b14r12p10-12b14r12p10- 12b14r12p10-----|
D|----12----------------------------------------- ------------12--|
A|----------------------------------------------- ----------------|
E|----------------------------------------------- ----------------|

e|----------------------------------------------- -|
B|----------------------------------------------- -|
G|----------10----------------------------------- -|
D|-12p10--------12p10---------------------------- -|
A|-------12-----------12-10--12p10----11-11-11-10 -|
E|---------------------------------13------------ -|

e|-------------------------|
B|----------------10-10-10-|
G|----10----10-12----------|
D|-12----12----------------|
A|-------------------------|
E|-------------------------|

Kirk, as in many of his solos, plays this one with a wah.. this makes the opening (#5) thing very cool sounding..

I hope you'll enjoy playing it, so have fun!

to be continued..


3:06 pm - 0 comments - 0 Kudos - Report!
Post your comment
Expand