Circle

Subscribe!
Contacting Circle
Send message Forward
Add to friends Favorites
Add to group Block user
 Blog archive :

First | Last

Next 10

Previous 10

Advanced view
from date
to date
on date
Saturday, August 02, 2008

Metallica Solo Death Magnetic (New Album) #2

hey there!
its been a while, but here I am again with a new tab from the solo played by Kirk on the fly on the wall vid from july 18.

before Kirk starts playing the solo over the rhythm parts he plays this little doodle:

e|-----------------|
B|-----------------|
G|-9---7-9---7-12--|
D|-----------------|
A|-7---5-7---5-10--|
E|-----------------|

then he starts with the real deal:

e|--------------------------------|
B|--------------------------------|
G|-19---17-19---------------------|
D|-------------<slide down neck>--|
A|-17---15-17---------------------|
E|--------------------------------|

e|------------------------------------------------ --|
B|----------------------------------------------- ---|
G|-------12----12-14-14^16\/14-14p12----12------- ---|
D|-12h14----14-----------------------14----14-12- ---|
A|----------------------------------------------- 14-|
E|----------------------------------------------- ---|

e|------------------------------------------------ --|
B|----------------------------------------------- ---|
G|-------12----12-14-14^16\/14-14p12----12----12- ---|
D|-12h14----14-----------------------14----14---- ---|
A|----------------------------------------------- ---|
E|----------------------------------------------- ---|

e|------------------------------------------------ ----------------|
B|-------12-15p12-------12-15p12---{15p13p12-
15p13p12-15p13p12}---|
G|-14^16----------14^16-------------------------- -----------------|
D|----------------------------------------------- -----------------|
A|----------------------------------------------- -----------------|
E|----------------------------------------------- -----------------|

between {..} brackets: repeat endless amount of times ;)

so this was it for now..
do you know something from the new album you want me to take a look at? please comment and I'll try my best :D

the new album will be released the 12th of september! cant wait,

have fun with it,,

to be continued..
10:08 am - 0 comments - 0 Kudos
Wednesday, July 23, 2008

Metallica Track Listing revealed!

Death Magnetic:
1. That Was Just Your Life
2. The End Of The Line
3. Broken, Beat & Scarred
4. The Day That Never Comes
5. All Nightmare Long
6. Cyanide
7. The Unforgiven III
8. The Judas Kiss
9. Suicide & Redemption
10.My Apocalypse

so this is it, the titles of what we've long been waiting for..:D
if you ask me I think some titles are kinda long, still quite cool though,

tell me what you think

more tabs coming soon,, stay tuned ;)

to be continued..
5:47 pm - 3 comments - 0 Kudos
Wednesday, July 09, 2008

Metallica Riffs Death Magnetic (New Album) #14

another great clean riff is in the video of the 6th of july, it goes as follows:

e|----------------|
B|-3h4------------|
G|-----5----------| repeat a couple of times
D|-------3-3h5----|
A|-------------3--|
E|----------------|

have fun with it ;)

to be continued..
11:34 am - 0 comments - 0 Kudos
Monday, July 07, 2008

Metallica solo Death Magnetic (New Album) #1

in the video from July 4 Lars and a guy from the studio are mixing a solo by Kirk.. First I will give the tabs of all separate parts that are played in the video.. then I will give you my impression of the solo. So lets get rollin'!

in order as shown in the vid:

Legende:

B= bend

R= release bend

H= hammer on

P= pull off

#1

e|----------------------------------------------- ----------------|
B|----------------------------------------------- ----------------|
G|-10-----10-12b14r12p10-12b14r12p10-12b14r12p10- 12b14r12p10-----|
D|----12----------------------------------------- ------------12--|
A|----------------------------------------------- ----------------|
E|----------------------------------------------- ----------------|

#2

e|-------------------------------------------|
B|-------------------------------------13b15-|
G|-12b14r12p10-12b14r12p10-12b14r12p10-------|
D|-------------------------------------------|
A|-------------------------------------------|
E|-------------------------------------------|


#3

e|----------------------------------------|
B|----------------------------------------|
G|-12b14r12p10-12b14r12p10-12b14r12p10----|
D|-------------------------------------12-|
A|----------------------------------------|
E|----------------------------------------|

#4

e|----------------------------------------------- ----------------|
B|----------------------------------------------- ----------------|
G|-10-----10-12b14r12p10-12b14r12p10-12b14r12p10- 12b14r12p10-----|
D|----12----------------------------------------- ------------12--|
A|----------------------------------------------- ----------------|
E|----------------------------------------------- ----------------|

e|----------------------------------------------- -|
B|----------------------------------------------- -|
G|----------10----------------------------------- -|
D|-12p10--------12p10---------------------------- -|
A|-------12-----------12-10--12p10----11-11-11-10 -|
E|---------------------------------13------------ -|

e|-------------------------|
B|----------------10-10-10-|
G|----10----10-12----------|
D|-12----12----------------|
A|-------------------------|
E|-------------------------|



#5
e|----------------------------------------------- -|
B|-9--------------------------------------------- -|
G|-10---and then you get riff mentioned at #1-----|
D|--^-------------------------------------------- -|
A|--|-------------------------------------------- -|
E|--|-------------------------------------------- -|

{strum this a few times, listen to the vid for the rhythm, its very easy.}

now I will show you how I think (seeing the pieces given to us in the video) the solo will be like on the record:

e|----------------------------------------------- -|
B|-9--------------------------------------------- -|
G|-10---and then you get riff mentioned at #1-----|
D|--^-------------------------------------------- -|
A|--|-------------------------------------------- -|
E|--|-------------------------------------------- -|

{strum this a few times, listen to the vid for the rhythm, its very easy.}

e|----------------------------------------------- ----------------|
B|----------------------------------------------- ----------------|
G|-10-----10-12b14r12p10-12b14r12p10-12b14r12p10- 12b14r12p10-----|
D|----12----------------------------------------- ------------12--|
A|----------------------------------------------- ----------------|
E|----------------------------------------------- ----------------|

e|----------------------------------------------- ----------------|
B|----------------------------------------------- ------------13b-|
G|-10-----10-12b14r12p10-12b14r12p10-12b14r12p10- 12b14r12p10-----|
D|----12----------------------------------------- ----------------|
A|----------------------------------------------- ----------------|
E|----------------------------------------------- ----------------|

e|----------------------------------------------- ----------------|
B|----------------------------------------------- ----------------|
G|-10-----10-12b14r12p10-12b14r12p10-12b14r12p10- 12b14r12p10-----|
D|----12----------------------------------------- ------------12--|
A|----------------------------------------------- ----------------|
E|----------------------------------------------- ----------------|

e|----------------------------------------------- -|
B|----------------------------------------------- -|
G|----------10----------------------------------- -|
D|-12p10--------12p10---------------------------- -|
A|-------12-----------12-10--12p10----11-11-11-10 -|
E|---------------------------------13------------ -|

e|-------------------------|
B|----------------10-10-10-|
G|----10----10-12----------|
D|-12----12----------------|
A|-------------------------|
E|-------------------------|

Kirk, as in many of his solos, plays this one with a wah.. this makes the opening (#5) thing very cool sounding..

I hope you'll enjoy playing it, so have fun!

to be continued..


3:06 pm - 0 comments - 0 Kudos
Sunday, July 06, 2008

Metallica Riffs Death Magnetic (New Album) #13

In the video from July the 5th James records the vocals. A nice clean riff is given away. I must say I like it very much.

e|--------------------------------|
B|--------------------------------|
G|--------------------------------|
D|---2---2-2---2-2---2---2---3-2--|
A|---3-2-3-3-2-3-3-2-3-2-3-2------|
E|-0------------------------------|

it takes some time figuring out the fingering, so I'll try and enlighten it a bit more:

make sure your first (index) finger stays put on the second on the A-string (fifth string). From there on let your fingers form an open D major chord, now lift your middle finger and ring finger one string higher so they rest on D2 and A3. it'll be as follows:

index finger: A2
middle finger: D2
ring finger: A3

now you just lift your middle and ring finger when necessary.
I hope this little explanation helped, if not please comment and I'll try n help you out further..

have fun with it! once again, please comment/subscribe and tell me what you think.. I'd be glad to hear your opinions ;)

to be continued..
6:18 am - 0 comments - 0 Kudos
Saturday, July 05, 2008

Metallica Riffs Death Magnetic (New Album) #12

hey there! I'm back again, tabbed the riff in the video of july 2nd.. it feels great, check it out..

e|--------------------------------------|
B|--------------------------------------|
G|--------------------------------------|
D|-9-9-7/9-12-9-7/9---------5-5-5/4-4---|
A|-7-7-5/7-10-7-5/7-5-5--2-5-3-3-3/2-2--|
E|------------------3-3--0-3------------|

when James plays this riff when its best heard, its on the clean channel with some chorus on..

more coming soon, have fun with it ;)

to be continued..
11:27 am - 0 comments - 0 Kudos
Sunday, June 22, 2008

Metallica Riffs Death Magnetic (New Album) #11

a new one, finally.. the june 21 fly on the wall gives another riff away. there is some discussion about the beat though.

e|---------------------|
B|---------------------|
G|---------------------| repeated a couple of times
D|-~-8-3---4-5--4-5----|
A|---6-1---2-3--2-3----|
E|-0-----0-------------|

so this is it, have fun. Please comment on if you think this should be played fast or slow and what you think about its heavyness.

Personally I think this should be played a bit slower than in the vid. Tell me what you think ;)

to be continued..
3:14 pm - 0 comments - 0 Kudos
Friday, June 20, 2008

Metallica Riffs Death Magnetic (New Album) #10

fly-on-the-wall june 18:

After explaining what his 'strange' headphones are for James plays a cool riff which I think he played as follows:

e|-------------------------------------------|>
B|-------------------------------------------|> ;
G|-------------------------------------------|> ;
D|-------------------------------------------|> ;
A|-5h7----5h7----5h7------------5h7----5h7---|>
E|-0---00-0---00-0---00-3p0-3p0-0---00-0-----|> ;

>|-------------------------------------------- ---|
>|-------------------------------------------- ---|
>|-------------------------------------------- ---|
>|-------------5---------------------------7-7 -7-|
>|-7-7-7-7-5h7---7-5h7p5-------------5-5h7---5- 5-|
>|-----------------------5-3-5-5-5h7---------- ---|

then together they play the following piece of a song (an intro maybe?)

e|---------------------------------|
B|---------------------------------|
G|---------------------------------|
D|-4-5-7-10~-----------4-5-12-10~--|
A|-2-3-5-8~~-----------2-3-10-8~~--|
E|-----------7777-777--------------|

have fun with it!
And (once again ) please subscribe or leave a comment, I'd be glad to get some feedback.
Cheers!

To be continued..
10:58 am - 0 comments - 0 Kudos
Tuesday, June 17, 2008

Metallica Riffs Death Magnetic (New Album) #9

in the fly-on-the-wall video posted on the 16th of june no (clear) guitar riffs are to be heard, this gives me some time to catch up with them as I had some riffs still not tabbed out yet. So here are a few good-old riffs from (very) early videos.

I'll start of with the 'bow down'-riff, the lyrics are:

bow down
sell your soul to me
I will set you free

e|----------------------------|
B|----------------------------|
G|----------------------------|
D|-9-9/10-10-10-----7/9-9-----| x 2
A|-7-7/-8--8--8-(0)-5/7-7-----|
E|----------------------------|

a little doodle played by kirk, seems (some sort of) an outro solo.

e|---------------------------------------------|
B|---------------------------------------------|
G|-------12-------12--14p12--12-14p12----12----|
D|-14-14----14-14----------14---------14-------| repeated a few times
A|---------------------------------------------|
E|---------------------------------------------|

then there also is this ‘the new song’ riff that comes back in the videos:

you can clearly hear Kirk doing this lick with his wah over it:

e|-------------------7-6-5---|
B|-----------7---7-9---------|
G|-8-6-7-8-8---8-------------|
D|---------------------------| repeated a few times
A|---------------------------|
E|---------------------------|

Then you hear a rhythm riff from the same song:

C#|--------------------------------|
G#|--------------------------------|
E |--------------------------------|
B |-----------------------7-6-5----| repeated a few times
F#|-4-4-4-2-4--4-4-4-2-4--5-4-3----|
C#|-2-2-2-0-2--2-2-2-0-2-----------|

This was it for now, I hope you have fun playing it, I did anyways..

Please comment if you hava anything to say, I’d be glad to hear it. Also, if you want to be the first to have the next tabs, please subscribe :)

Have fun!

To be continued..



10:47 am - 0 comments - 0 Kudos
Monday, June 16, 2008

Metallica Riffs Death Magnetic (New Album) #8

Crunch City,
Hetfield plays this riff in the video posted on the 15th of June.

The tuning is open C, but you can just as easy only lower your (standard) E and A, the riff does not include any other strings.

C#|----------------------------------|
G#|----------------------------------|
E |----------------------------------|
B |----------------------------------|
F#|-4/5-5----5----5-2-2----5-2-4-5-2-
|
C#|-2/3-3-00-3-00-3-0-0-00-3-0-2-3-0-
|
PM_______

C#|------------------------------|
G#|------------------------------|
E |------------------------------|
B |------------------------------|
F#|-
5----5----5-2-2----5-2-4-5-2-|
C#|-
3-00-3-00-3-0-0-00-3-0-2-3-0-|
PM_______


have fun with it!

have anything to say? know some riffs I have forgotten to tab? Please comment/subscribe, more will be to come!

to be continued..
11:01 am - 0 comments - 0 Kudos
First page | Previous 10 blogs